  0
SECTION
  2
HEADER
  9
$ACADVER
  1
AC1014
  9
$HANDSEED
  5
FFFF
  9
$MEASUREMENT
 70
     1
  0
ENDSEC
  0
SECTION
  2
TABLES
  0
TABLE
  2
VPORT
  5
8
330
0
100
AcDbSymbolTable
 70
     4
  0
VPORT
  5
2E
330
8
100
AcDbSymbolTableRecord
100
AcDbViewportTableRecord
  2
*ACTIVE
 70
     0
 10
0.0
 20
0.0
 11
1.0
 21
1.0
 12
210.0
 22
148.5
 13
0.0
 23
0.0
 14
10.0
 24
10.0
 15
10.0
 25
10.0
 16
0.0
 26
0.0
 36
1.0
 17
0.0
 27
0.0
 37
0.0
 40
341.0
 41
1.24
 42
50.0
 43
0.0
 44
0.0
 50
0.0
 51
0.0
 71
     0
 72
   100
 73
     1
 74
     3
 75
     0
 76
     0
 77
     0
 78
     0
  0
ENDTAB
  0
TABLE
  2
LTYPE
  5
5
330
0
100
AcDbSymbolTable
 70
     1
  0
LTYPE
  5
14
330
5
100
AcDbSymbolTableRecord
100
AcDbLinetypeTableRecord
  2
BYBLOCK
 70
     0
  3

 72
    65
 73
     0
 40
0.0
  0
LTYPE
  5
15
330
5
100
AcDbSymbolTableRecord
100
AcDbLinetypeTableRecord
  2
BYLAYER
 70
     0
  3

 72
    65
 73
     0
 40
0.0
  0
LTYPE
  5
16
330
5
100
AcDbSymbolTableRecord
100
AcDbLinetypeTableRecord
  2
CONTINUOUS
 70
     0
  3
Solid line
 72
    65
 73
     0
 40
0.0
  0
ENDTAB
  0
TABLE
  2
LAYER
  5
2
100
AcDbSymbolTable
 70
2
  0
LAYER
  5
50
100
AcDbSymbolTableRecord
100
AcDbLayerTableRecord
  2
0
 70
0
  6
CONTINUOUS
  0
LAYER
  5
51
100
AcDbSymbolTableRecord
100
AcDbLayerTableRecord
  2
Calque_1
 70
0
  6
CONTINUOUS
  0
ENDTAB
  0
TABLE
  2
STYLE
  5
3
330
0
100
AcDbSymbolTable
 70
     1
  0
STYLE
  5
11
330
3
100
AcDbSymbolTableRecord
100
AcDbTextStyleTableRecord
  2
STANDARD
 70
     0
 40
0.0
 41
1.0
 50
0.0
 71
     0
 42
2.5
  3
txt
  4

  0
ENDTAB
  0
TABLE
  2
VIEW
  5
6
330
0
100
AcDbSymbolTable
 70
     0
  0
ENDTAB
  0
TABLE
  2
UCS
  5
7
330
0
100
AcDbSymbolTable
 70
     0
  0
ENDTAB
  0
TABLE
  2
APPID
  5
9
330
0
100
AcDbSymbolTable
 70
     2
  0
APPID
  5
12
330
9
100
AcDbSymbolTableRecord
100
AcDbRegAppTableRecord
  2
ACAD
 70
     0
  0
ENDTAB
  0
TABLE
  2
DIMSTYLE
  5
A
330
0
100
AcDbSymbolTable
 70
     1
  0
DIMSTYLE
105
27
330
A
100
AcDbSymbolTableRecord
100
AcDbDimStyleTableRecord
  2
ISO-25
 70
     0
  3

  4

  5

  6

  7

 40
1.0
 41
2.5
 42
0.625
 43
3.75
 44
1.25
 45
0.0
 46
0.0
 47
0.0
 48
0.0
140
2.5
141
2.5
142
0.0
143
0.03937007874016
144
1.0
145
0.0
146
1.0
147
0.625
 71
     0
 72
     0
 73
     0
 74
     0
 75
     0
 76
     0
 77
     1
 78
     8
170
     0
171
     3
172
     1
173
     0
174
     0
175
     0
176
     0
177
     0
178
     0
270
     2
271
     2
272
     2
273
     2
274
     3
340
11
275
     0
280
     0
281
     0
282
     0
283
     0
284
     8
285
     0
286
     0
287
     3
288
     0
  0
ENDTAB
  0
TABLE
  2
BLOCK_RECORD
  5
1
330
0
100
AcDbSymbolTable
 70
     1
  0
BLOCK_RECORD
  5
1F
330
1
100
AcDbSymbolTableRecord
100
AcDbBlockTableRecord
  2
*MODEL_SPACE
  0
BLOCK_RECORD
  5
1B
330
1
100
AcDbSymbolTableRecord
100
AcDbBlockTableRecord
  2
*PAPER_SPACE
  0
ENDTAB
  0
ENDSEC
  0
SECTION
  2
BLOCKS
  0
BLOCK
  5
20
330
1F
100
AcDbEntity
  8
0
100
AcDbBlockBegin
  2
*MODEL_SPACE
 70
     0
 10
0.0
 20
0.0
 30
0.0
  3
*MODEL_SPACE
  1

  0
ENDBLK
  5
21
330
1F
100
AcDbEntity
  8
0
100
AcDbBlockEnd
  0
BLOCK
  5
1C
330
1B
100
AcDbEntity
 67
     1
  8
0
100
AcDbBlockBegin
  2
*PAPER_SPACE
  1

  0
ENDBLK
  5
1D
330
1B
100
AcDbEntity
 67
     1
  8
0
100
AcDbBlockEnd
  0
ENDSEC
  0
SECTION
  2
ENTITIES
  0
LWPOLYLINE
  5
100
100
AcDbEntity
  8
Calque_1
 62
7
100
AcDbPolyline
 90
64
 70
1
 10
-0.764630
 20
1.952738
 30
0.0
 10
-0.878577
 20
1.962413
 30
0.0
 10
-0.987485
 20
1.990687
 30
0.0
 10
-1.090192
 20
2.037937
 30
0.0
 10
-1.183209
 20
2.103412
 30
0.0
 10
-1.264600
 20
2.187510
 30
0.0
 10
-1.332425
 20
2.289825
 30
0.0
 10
-1.383973
 20
2.410755
 30
0.0
 10
-1.416916
 20
2.550277
 30
0.0
 10
-1.420794
 20
2.676247
 30
0.0
 10
-1.395989
 20
2.803365
 30
0.0
 10
-1.346380
 20
2.932823
 30
0.0
 10
-1.274679
 20
3.064988
 30
0.0
 10
-1.184374
 20
3.200633
 30
0.0
 10
-1.079342
 20
3.340537
 30
0.0
 10
-0.963070
 20
3.484718
 30
0.0
 10
-0.838659
 20
3.634320
 30
0.0
 10
-0.709985
 20
3.790133
 30
0.0
 10
-0.580148
 20
3.952515
 30
0.0
 10
-0.452249
 20
4.122278
 30
0.0
 10
-0.330551
 20
4.299780
 30
0.0
 10
-0.217767
 20
4.485818
 30
0.0
 10
-0.118160
 20
4.681155
 30
0.0
 10
-0.034445
 20
4.886580
 30
0.0
 10
0.029893
 20
5.102460
 30
0.0
 10
0.094230
 20
4.886580
 30
0.0
 10
0.177946
 20
4.681155
 30
0.0
 10
0.277940
 20
4.485818
 30
0.0
 10
0.390336
 20
4.299780
 30
0.0
 10
0.512421
 20
4.122278
 30
0.0
 10
0.639933
 20
3.952515
 30
0.0
 10
0.769770
 20
3.790133
 30
0.0
 10
0.898832
 20
3.634320
 30
0.0
 10
1.023243
 20
3.484718
 30
0.0
 10
1.139515
 20
3.340537
 30
0.0
 10
1.244547
 20
3.200633
 30
0.0
 10
1.334464
 20
3.064988
 30
0.0
 10
1.406165
 20
2.932823
 30
0.0
 10
1.456162
 20
2.803365
 30
0.0
 10
1.480966
 20
2.676247
 30
0.0
 10
1.477089
 20
2.550277
 30
0.0
 10
1.444145
 20
2.410755
 30
0.0
 10
1.392598
 20
2.289825
 30
0.0
 10
1.324772
 20
2.187510
 30
0.0
 10
1.242994
 20
2.103412
 30
0.0
 10
1.149976
 20
2.037937
 30
0.0
 10
1.047657
 20
1.990687
 30
0.0
 10
0.938361
 20
1.962413
 30
0.0
 10
0.824415
 20
1.952738
 30
0.0
 10
0.708531
 20
1.961663
 30
0.0
 10
0.592646
 20
1.989563
 30
0.0
 10
0.479087
 20
2.035688
 30
0.0
 10
0.370567
 20
2.101163
 30
0.0
 10
0.269022
 20
2.184863
 30
0.0
 10
0.176780
 20
2.287973
 30
0.0
 10
0.096165
 20
2.409653
 30
0.0
 10
0.029889
 20
2.550345
 30
0.0
 10
-0.036386
 20
2.409653
 30
0.0
 10
-0.116613
 20
2.287973
 30
0.0
 10
-0.208856
 20
2.184863
 30
0.0
 10
-0.310400
 20
2.101163
 30
0.0
 10
-0.419308
 20
2.035688
 30
0.0
 10
-0.532867
 20
1.989563
 30
0.0
 10
-0.648751
 20
1.961663
 30
0.0
  0
LWPOLYLINE
  5
101
100
AcDbEntity
  8
Calque_1
 62
7
100
AcDbPolyline
 90
64
 70
1
 10
1.567833
 20
0.749273
 30
0.0
 10
1.577508
 20
0.863220
 30
0.0
 10
1.605783
 20
0.972127
 30
0.0
 10
1.653033
 20
1.074833
 30
0.0
 10
1.718508
 20
1.167847
 30
0.0
 10
1.802606
 20
1.249237
 30
0.0
 10
1.904921
 20
1.317037
 30
0.0
 10
2.025851
 20
1.368562
 30
0.0
 10
2.165373
 20
1.401487
 30
0.0
 10
2.291343
 20
1.405237
 30
0.0
 10
2.418461
 20
1.380412
 30
0.0
 10
2.547918
 20
1.330837
 30
0.0
 10
2.680083
 20
1.259137
 30
0.0
 10
2.815728
 20
1.168837
 30
0.0
 10
2.955633
 20
1.063800
 30
0.0
 10
3.099813
 20
0.947527
 30
0.0
 10
3.249416
 20
0.823117
 30
0.0
 10
3.405228
 20
0.694447
 30
0.0
 10
3.567611
 20
0.564607
 30
0.0
 10
3.737373
 20
0.436710
 30
0.0
 10
3.914876
 20
0.315007
 30
0.0
 10
4.100913
 20
0.202230
 30
0.0
 10
4.296251
 20
0.102622
 30
0.0
 10
4.501676
 20
0.018907
 30
0.0
 10
4.717556
 20
-0.045443
 30
0.0
 10
4.501676
 20
-0.109793
 30
0.0
 10
4.296251
 20
-0.193508
 30
0.0
 10
4.100913
 20
-0.293505
 30
0.0
 10
3.914876
 20
-0.405900
 30
0.0
 10
3.737373
 20
-0.527985
 30
0.0
 10
3.567611
 20
-0.655493
 30
0.0
 10
3.405228
 20
-0.785333
 30
0.0
 10
3.249416
 20
-0.914393
 30
0.0
 10
3.099813
 20
-1.038803
 30
0.0
 10
2.955633
 20
-1.155075
 30
0.0
 10
2.815728
 20
-1.260113
 30
0.0
 10
2.680083
 20
-1.350030
 30
0.0
 10
2.547918
 20
-1.421730
 30
0.0
 10
2.418461
 20
-1.471755
 30
0.0
 10
2.291343
 20
-1.496580
 30
0.0
 10
2.165373
 20
-1.492830
 30
0.0
 10
2.025851
 20
-1.459905
 30
0.0
 10
1.904921
 20
-1.408380
 30
0.0
 10
1.802606
 20
-1.340580
 30
0.0
 10
1.718508
 20
-1.258808
 30
0.0
 10
1.653033
 20
-1.165785
 30
0.0
 10
1.605783
 20
-1.063470
 30
0.0
 10
1.577508
 20
-0.954173
 30
0.0
 10
1.567833
 20
-0.840225
 30
0.0
 10
1.576758
 20
-0.724343
 30
0.0
 10
1.604658
 20
-0.608453
 30
0.0
 10
1.650783
 20
-0.494895
 30
0.0
 10
1.716258
 20
-0.386378
 30
0.0
 10
1.799958
 20
-0.284835
 30
0.0
 10
1.903068
 20
-0.192593
 30
0.0
 10
2.024748
 20
-0.111975
 30
0.0
 10
2.165440
 20
-0.045675
 30
0.0
 10
2.024748
 20
0.020625
 30
0.0
 10
1.903068
 20
0.100852
 30
0.0
 10
1.799958
 20
0.193095
 30
0.0
 10
1.716258
 20
0.294645
 30
0.0
 10
1.650783
 20
0.403552
 30
0.0
 10
1.604658
 20
0.517110
 30
0.0
 10
1.576758
 20
0.632992
 30
0.0
  0
LWPOLYLINE
  5
102
100
AcDbEntity
  8
Calque_1
 62
7
100
AcDbPolyline
 90
64
 70
1
 10
0.762629
 20
-1.968277
 30
0.0
 10
0.876576
 20
-1.977953
 30
0.0
 10
0.985484
 20
-2.006227
 30
0.0
 10
1.088189
 20
-2.053477
 30
0.0
 10
1.181204
 20
-2.118952
 30
0.0
 10
1.262594
 20
-2.203050
 30
0.0
 10
1.330394
 20
-2.305365
 30
0.0
 10
1.381919
 20
-2.426295
 30
0.0
 10
1.414844
 20
-2.565817
 30
0.0
 10
1.418594
 20
-2.691787
 30
0.0
 10
1.393769
 20
-2.818905
 30
0.0
 10
1.344194
 20
-2.948363
 30
0.0
 10
1.272494
 20
-3.080528
 30
0.0
 10
1.182194
 20
-3.216172
 30
0.0
 10
1.077156
 20
-3.356077
 30
0.0
 10
0.960884
 20
-3.500258
 30
0.0
 10
0.836474
 20
-3.649860
 30
0.0
 10
0.707804
 20
-3.805673
 30
0.0
 10
0.577964
 20
-3.968055
 30
0.0
 10
0.450066
 20
-4.137818
 30
0.0
 10
0.328364
 20
-4.315320
 30
0.0
 10
0.215586
 20
-4.501358
 30
0.0
 10
0.115979
 20
-4.696695
 30
0.0
 10
0.032264
 20
-4.902120
 30
0.0
 10
-0.032086
 20
-5.118000
 30
0.0
 10
-0.096436
 20
-4.902120
 30
0.0
 10
-0.180151
 20
-4.696695
 30
0.0
 10
-0.280149
 20
-4.501358
 30
0.0
 10
-0.392544
 20
-4.315320
 30
0.0
 10
-0.514629
 20
-4.137818
 30
0.0
 10
-0.642136
 20
-3.968055
 30
0.0
 10
-0.771976
 20
-3.805673
 30
0.0
 10
-0.901036
 20
-3.649860
 30
0.0
 10
-1.025446
 20
-3.500258
 30
0.0
 10
-1.141719
 20
-3.356077
 30
0.0
 10
-1.246756
 20
-3.216172
 30
0.0
 10
-1.336674
 20
-3.080528
 30
0.0
 10
-1.408374
 20
-2.948363
 30
0.0
 10
-1.458399
 20
-2.818905
 30
0.0
 10
-1.483224
 20
-2.691787
 30
0.0
 10
-1.479474
 20
-2.565817
 30
0.0
 10
-1.446549
 20
-2.426295
 30
0.0
 10
-1.395024
 20
-2.305365
 30
0.0
 10
-1.327224
 20
-2.203050
 30
0.0
 10
-1.245451
 20
-2.118952
 30
0.0
 10
-1.152429
 20
-2.053477
 30
0.0
 10
-1.050114
 20
-2.006227
 30
0.0
 10
-0.940816
 20
-1.977953
 30
0.0
 10
-0.826869
 20
-1.968277
 30
0.0
 10
-0.710986
 20
-1.977203
 30
0.0
 10
-0.595096
 20
-2.005103
 30
0.0
 10
-0.481539
 20
-2.051228
 30
0.0
 10
-0.373021
 20
-2.116703
 30
0.0
 10
-0.271479
 20
-2.200403
 30
0.0
 10
-0.179236
 20
-2.303513
 30
0.0
 10
-0.098619
 20
-2.425193
 30
0.0
 10
-0.032319
 20
-2.565885
 30
0.0
 10
0.033981
 20
-2.425193
 30
0.0
 10
0.114209
 20
-2.303513
 30
0.0
 10
0.206451
 20
-2.200403
 30
0.0
 10
0.308001
 20
-2.116703
 30
0.0
 10
0.416909
 20
-2.051228
 30
0.0
 10
0.530466
 20
-2.005103
 30
0.0
 10
0.646349
 20
-1.977203
 30
0.0
  0
LWPOLYLINE
  5
103
100
AcDbEntity
  8
Calque_1
 62
7
100
AcDbPolyline
 90
64
 70
1
 10
-1.657268
 20
-0.915030
 30
0.0
 10
-1.666943
 20
-1.028977
 30
0.0
 10
-1.695218
 20
-1.137885
 30
0.0
 10
-1.742468
 20
-1.240590
 30
0.0
 10
-1.807943
 20
-1.333605
 30
0.0
 10
-1.892040
 20
-1.414995
 30
0.0
 10
-1.994355
 20
-1.482795
 30
0.0
 10
-2.115285
 20
-1.534320
 30
0.0
 10
-2.254808
 20
-1.567245
 30
0.0
 10
-2.380778
 20
-1.570995
 30
0.0
 10
-2.507895
 20
-1.546170
 30
0.0
 10
-2.637353
 20
-1.496595
 30
0.0
 10
-2.769518
 20
-1.424895
 30
0.0
 10
-2.905163
 20
-1.334595
 30
0.0
 10
-3.045068
 20
-1.229557
 30
0.0
 10
-3.189248
 20
-1.113285
 30
0.0
 10
-3.338850
 20
-0.988875
 30
0.0
 10
-3.494663
 20
-0.860205
 30
0.0
 10
-3.657045
 20
-0.730365
 30
0.0
 10
-3.826808
 20
-0.602467
 30
0.0
 10
-4.004310
 20
-0.480765
 30
0.0
 10
-4.190348
 20
-0.367987
 30
0.0
 10
-4.385685
 20
-0.268380
 30
0.0
 10
-4.591110
 20
-0.184665
 30
0.0
 10
-4.806990
 20
-0.120315
 30
0.0
 10
-4.591110
 20
-0.055965
 30
0.0
 10
-4.385685
 20
0.027750
 30
0.0
 10
-4.190348
 20
0.127748
 30
0.0
 10
-4.004310
 20
0.240143
 30
0.0
 10
-3.826808
 20
0.362228
 30
0.0
 10
-3.657045
 20
0.489735
 30
0.0
 10
-3.494663
 20
0.619575
 30
0.0
 10
-3.338850
 20
0.748635
 30
0.0
 10
-3.189248
 20
0.873045
 30
0.0
 10
-3.045068
 20
0.989318
 30
0.0
 10
-2.905163
 20
1.094355
 30
0.0
 10
-2.769518
 20
1.184273
 30
0.0
 10
-2.637353
 20
1.255973
 30
0.0
 10
-2.507895
 20
1.305998
 30
0.0
 10
-2.380778
 20
1.330823
 30
0.0
 10
-2.254808
 20
1.327073
 30
0.0
 10
-2.115285
 20
1.294148
 30
0.0
 10
-1.994355
 20
1.242623
 30
0.0
 10
-1.892040
 20
1.174823
 30
0.0
 10
-1.807943
 20
1.093050
 30
0.0
 10
-1.742468
 20
1.000028
 30
0.0
 10
-1.695218
 20
0.897713
 30
0.0
 10
-1.666943
 20
0.788415
 30
0.0
 10
-1.657268
 20
0.674468
 30
0.0
 10
-1.666193
 20
0.558585
 30
0.0
 10
-1.694093
 20
0.442695
 30
0.0
 10
-1.740218
 20
0.329138
 30
0.0
 10
-1.805693
 20
0.220620
 30
0.0
 10
-1.889393
 20
0.119078
 30
0.0
 10
-1.992503
 20
0.026835
 30
0.0
 10
-2.114183
 20
-0.053782
 30
0.0
 10
-2.254875
 20
-0.120082
 30
0.0
 10
-2.114183
 20
-0.186382
 30
0.0
 10
-1.992503
 20
-0.266610
 30
0.0
 10
-1.889393
 20
-0.358852
 30
0.0
 10
-1.805693
 20
-0.460402
 30
0.0
 10
-1.740218
 20
-0.569310
 30
0.0
 10
-1.694093
 20
-0.682867
 30
0.0
 10
-1.666193
 20
-0.798750
 30
0.0
  0
LWPOLYLINE
  5
104
100
AcDbEntity
  8
Calque_1
 62
7
100
AcDbPolyline
 90
64
 70
1
 10
2.937335
 20
2.147280
 30
0.0
 10
2.988683
 20
2.104455
 30
0.0
 10
3.045372
 20
2.071080
 30
0.0
 10
3.107346
 20
2.048130
 30
0.0
 10
3.172845
 20
2.036730
 30
0.0
 10
3.241281
 20
2.038230
 30
0.0
 10
3.311576
 20
2.052480
 30
0.0
 10
3.382886
 20
2.081205
 30
0.0
 10
3.454171
 20
2.125230
 30
0.0
 10
3.507798
 20
2.175780
 30
0.0
 10
3.550091
 20
2.238630
 30
0.0
 10
3.583113
 20
2.312655
 30
0.0
 10
3.608107
 20
2.396925
 30
0.0
 10
3.626855
 20
2.490330
 30
0.0
 10
3.641270
 20
2.591595
 30
0.0
 10
3.652808
 20
2.699265
 30
0.0
 10
3.663219
 20
2.812538
 30
0.0
 10
3.674441
 20
2.930138
 30
0.0
 10
3.687896
 20
3.050948
 30
0.0
 10
3.705202
 20
3.173993
 30
0.0
 10
3.728267
 20
3.297683
 30
0.0
 10
3.758554
 20
3.421215
 30
0.0
 10
3.798125
 20
3.543143
 30
0.0
 10
3.848439
 20
3.662670
 30
0.0
 10
3.911081
 20
3.778515
 30
0.0
 10
3.795236
 20
3.715890
 30
0.0
 10
3.675707
 20
3.665565
 30
0.0
 10
3.553620
 20
3.626190
 30
0.0
 10
3.430249
 20
3.595740
 30
0.0
 10
3.306403
 20
3.572865
 30
0.0
 10
3.183513
 20
3.555390
 30
0.0
 10
3.062709
 20
3.541965
 30
0.0
 10
2.944942
 20
3.530940
 30
0.0
 10
2.831670
 20
3.520515
 30
0.0
 10
2.724000
 20
3.508965
 30
0.0
 10
2.622740
 20
3.494565
 30
0.0
 10
2.529492
 20
3.475665
 30
0.0
 10
2.445216
 20
3.450690
 30
0.0
 10
2.371020
 20
3.417840
 30
0.0
 10
2.308203
 20
3.375540
 30
0.0
 10
2.257673
 20
3.321915
 30
0.0
 10
2.213610
 20
3.250590
 30
0.0
 10
2.184900
 20
3.179265
 30
0.0
 10
2.170661
 20
3.108990
 30
0.0
 10
2.169678
 20
3.040365
 30
0.0
 10
2.181087
 20
2.974890
 30
0.0
 10
2.203867
 20
2.913090
 30
0.0
 10
2.237383
 20
2.856240
 30
0.0
 10
2.280246
 20
2.804865
 30
0.0
 10
2.331863
 20
2.760690
 30
0.0
 10
2.391279
 20
2.724315
 30
0.0
 10
2.457315
 20
2.696490
 30
0.0
 10
2.529223
 20
2.678640
 30
0.0
 10
2.605778
 20
2.671140
 30
0.0
 10
2.686549
 20
2.675640
 30
0.0
 10
2.770204
 20
2.692665
 30
0.0
 10
2.855773
 20
2.723415
 30
0.0
 10
2.825020
 20
2.637840
 30
0.0
 10
2.807858
 20
2.554350
 30
0.0
 10
2.803351
 20
2.473575
 30
0.0
 10
2.810753
 20
2.397022
 30
0.0
 10
2.828728
 20
2.324948
 30
0.0
 10
2.856580
 20
2.258948
 30
0.0
 10
2.892977
 20
2.199547
 30
0.0
  0
LWPOLYLINE
  5
105
100
AcDbEntity
  8
Calque_1
 62
7
100
AcDbPolyline
 90
64
 70
1
 10
2.031990
 20
-2.818432
 30
0.0
 10
1.989165
 20
-2.869807
 30
0.0
 10
1.955790
 20
-2.926507
 30
0.0
 10
1.932840
 20
-2.988457
 30
0.0
 10
1.921440
 20
-3.053933
 30
0.0
 10
1.922940
 20
-3.122408
 30
0.0
 10
1.937190
 20
-3.192682
 30
0.0
 10
1.965915
 20
-3.264007
 30
0.0
 10
2.009940
 20
-3.335258
 30
0.0
 10
2.060490
 20
-3.388883
 30
0.0
 10
2.123340
 20
-3.431183
 30
0.0
 10
2.197365
 20
-3.464183
 30
0.0
 10
2.281635
 20
-3.489158
 30
0.0
 10
2.375040
 20
-3.507907
 30
0.0
 10
2.476305
 20
-3.522308
 30
0.0
 10
2.583975
 20
-3.533858
 30
0.0
 10
2.697248
 20
-3.544283
 30
0.0
 10
2.814848
 20
-3.555532
 30
0.0
 10
2.935658
 20
-3.568957
 30
0.0
 10
3.058703
 20
-3.586282
 30
0.0
 10
3.182393
 20
-3.609382
 30
0.0
 10
3.305925
 20
-3.639682
 30
0.0
 10
3.427853
 20
-3.679282
 30
0.0
 10
3.547380
 20
-3.729607
 30
0.0
 10
3.663225
 20
-3.792232
 30
0.0
 10
3.600600
 20
-3.676380
 30
0.0
 10
3.550275
 20
-3.556852
 30
0.0
 10
3.510900
 20
-3.434767
 30
0.0
 10
3.480450
 20
-3.311392
 30
0.0
 10
3.457575
 20
-3.187552
 30
0.0
 10
3.440100
 20
-3.064657
 30
0.0
 10
3.426675
 20
-2.943855
 30
0.0
 10
3.415650
 20
-2.826090
 30
0.0
 10
3.405225
 20
-2.712817
 30
0.0
 10
3.393675
 20
-2.605147
 30
0.0
 10
3.379275
 20
-2.503890
 30
0.0
 10
3.360375
 20
-2.410642
 30
0.0
 10
3.335400
 20
-2.326365
 30
0.0
 10
3.302550
 20
-2.252190
 30
0.0
 10
3.260250
 20
-2.189340
 30
0.0
 10
3.206625
 20
-2.138790
 30
0.0
 10
3.135300
 20
-2.094690
 30
0.0
 10
3.063975
 20
-2.065965
 30
0.0
 10
2.993700
 20
-2.051715
 30
0.0
 10
2.925075
 20
-2.050965
 30
0.0
 10
2.859600
 20
-2.062365
 30
0.0
 10
2.797800
 20
-2.085165
 30
0.0
 10
2.740950
 20
-2.118690
 30
0.0
 10
2.689575
 20
-2.161515
 30
0.0
 10
2.645400
 20
-2.213115
 30
0.0
 10
2.609025
 20
-2.272515
 30
0.0
 10
2.581200
 20
-2.338590
 30
0.0
 10
2.563350
 20
-2.410515
 30
0.0
 10
2.555850
 20
-2.487067
 30
0.0
 10
2.560350
 20
-2.567835
 30
0.0
 10
2.577375
 20
-2.651497
 30
0.0
 10
2.608125
 20
-2.737065
 30
0.0
 10
2.522550
 20
-2.706315
 30
0.0
 10
2.439060
 20
-2.689140
 30
0.0
 10
2.358285
 20
-2.684640
 30
0.0
 10
2.281733
 20
-2.692140
 30
0.0
 10
2.209658
 20
-2.710140
 30
0.0
 10
2.143658
 20
-2.737965
 30
0.0
 10
2.084258
 20
-2.774340
 30
0.0
  0
LWPOLYLINE
  5
106
100
AcDbEntity
  8
Calque_1
 62
7
100
AcDbPolyline
 90
64
 70
1
 10
-2.735165
 20
-2.161252
 30
0.0
 10
-2.786540
 20
-2.118427
 30
0.0
 10
-2.843240
 20
-2.085052
 30
0.0
 10
-2.905190
 20
-2.062102
 30
0.0
 10
-2.970665
 20
-2.050702
 30
0.0
 10
-3.039140
 20
-2.052202
 30
0.0
 10
-3.109415
 20
-2.066452
 30
0.0
 10
-3.180740
 20
-2.095177
 30
0.0
 10
-3.251990
 20
-2.139202
 30
0.0
 10
-3.305615
 20
-2.189752
 30
0.0
 10
-3.347915
 20
-2.252602
 30
0.0
 10
-3.380915
 20
-2.326628
 30
0.0
 10
-3.405890
 20
-2.410898
 30
0.0
 10
-3.424640
 20
-2.504303
 30
0.0
 10
-3.439040
 20
-2.605568
 30
0.0
 10
-3.450590
 20
-2.713238
 30
0.0
 10
-3.461015
 20
-2.826510
 30
0.0
 10
-3.472265
 20
-2.944110
 30
0.0
 10
-3.485690
 20
-3.064920
 30
0.0
 10
-3.503015
 20
-3.187965
 30
0.0
 10
-3.526115
 20
-3.311655
 30
0.0
 10
-3.556415
 20
-3.435188
 30
0.0
 10
-3.596015
 20
-3.557115
 30
0.0
 10
-3.646340
 20
-3.676643
 30
0.0
 10
-3.708965
 20
-3.792488
 30
0.0
 10
-3.593112
 20
-3.729863
 30
0.0
 10
-3.473585
 20
-3.679538
 30
0.0
 10
-3.351500
 20
-3.640163
 30
0.0
 10
-3.228125
 20
-3.609713
 30
0.0
 10
-3.104285
 20
-3.586838
 30
0.0
 10
-2.981390
 20
-3.569363
 30
0.0
 10
-2.860587
 20
-3.555938
 30
0.0
 10
-2.742822
 20
-3.544913
 30
0.0
 10
-2.629550
 20
-3.534488
 30
0.0
 10
-2.521880
 20
-3.522938
 30
0.0
 10
-2.420622
 20
-3.508538
 30
0.0
 10
-2.327375
 20
-3.489638
 30
0.0
 10
-2.243097
 20
-3.464663
 30
0.0
 10
-2.168922
 20
-3.431813
 30
0.0
 10
-2.106072
 20
-3.389513
 30
0.0
 10
-2.055522
 20
-3.335888
 30
0.0
 10
-2.011422
 20
-3.264563
 30
0.0
 10
-1.982697
 20
-3.193238
 30
0.0
 10
-1.968447
 20
-3.122963
 30
0.0
 10
-1.967697
 20
-3.054338
 30
0.0
 10
-1.979097
 20
-2.988863
 30
0.0
 10
-2.001897
 20
-2.927063
 30
0.0
 10
-2.035422
 20
-2.870213
 30
0.0
 10
-2.078247
 20
-2.818838
 30
0.0
 10
-2.129847
 20
-2.774663
 30
0.0
 10
-2.189247
 20
-2.738288
 30
0.0
 10
-2.255322
 20
-2.710463
 30
0.0
 10
-2.327247
 20
-2.692613
 30
0.0
 10
-2.403800
 20
-2.685113
 30
0.0
 10
-2.484567
 20
-2.689613
 30
0.0
 10
-2.568230
 20
-2.706637
 30
0.0
 10
-2.653797
 20
-2.737388
 30
0.0
 10
-2.623047
 20
-2.651813
 30
0.0
 10
-2.605872
 20
-2.568323
 30
0.0
 10
-2.601372
 20
-2.487548
 30
0.0
 10
-2.608872
 20
-2.410995
 30
0.0
 10
-2.626872
 20
-2.338920
 30
0.0
 10
-2.654697
 20
-2.272920
 30
0.0
 10
-2.691072
 20
-2.213520
 30
0.0
  0
LWPOLYLINE
  5
107
100
AcDbEntity
  8
Calque_1
 62
7
100
AcDbPolyline
 90
64
 70
1
 10
-2.139802
 20
2.615543
 30
0.0
 10
-2.096977
 20
2.666917
 30
0.0
 10
-2.063602
 20
2.723617
 30
0.0
 10
-2.040652
 20
2.785568
 30
0.0
 10
-2.029252
 20
2.851043
 30
0.0
 10
-2.030752
 20
2.919518
 30
0.0
 10
-2.045002
 20
2.989793
 30
0.0
 10
-2.073727
 20
3.061118
 30
0.0
 10
-2.117752
 20
3.132368
 30
0.0
 10
-2.168302
 20
3.185993
 30
0.0
 10
-2.231152
 20
3.228293
 30
0.0
 10
-2.305177
 20
3.261293
 30
0.0
 10
-2.389447
 20
3.286268
 30
0.0
 10
-2.482852
 20
3.305018
 30
0.0
 10
-2.584117
 20
3.319418
 30
0.0
 10
-2.691787
 20
3.330968
 30
0.0
 10
-2.805060
 20
3.341393
 30
0.0
 10
-2.922660
 20
3.352643
 30
0.0
 10
-3.043470
 20
3.366067
 30
0.0
 10
-3.166515
 20
3.383393
 30
0.0
 10
-3.290205
 20
3.406493
 30
0.0
 10
-3.413737
 20
3.436792
 30
0.0
 10
-3.535665
 20
3.476392
 30
0.0
 10
-3.655192
 20
3.526717
 30
0.0
 10
-3.771037
 20
3.589342
 30
0.0
 10
-3.708412
 20
3.473490
 30
0.0
 10
-3.658087
 20
3.353962
 30
0.0
 10
-3.618712
 20
3.231877
 30
0.0
 10
-3.588262
 20
3.108502
 30
0.0
 10
-3.565387
 20
2.984662
 30
0.0
 10
-3.547912
 20
2.861767
 30
0.0
 10
-3.534487
 20
2.740965
 30
0.0
 10
-3.523462
 20
2.623200
 30
0.0
 10
-3.513037
 20
2.509928
 30
0.0
 10
-3.501487
 20
2.402258
 30
0.0
 10
-3.487087
 20
2.301000
 30
0.0
 10
-3.468187
 20
2.207752
 30
0.0
 10
-3.443212
 20
2.123475
 30
0.0
 10
-3.410362
 20
2.049300
 30
0.0
 10
-3.368062
 20
1.986450
 30
0.0
 10
-3.314437
 20
1.935900
 30
0.0
 10
-3.243112
 20
1.891800
 30
0.0
 10
-3.171787
 20
1.863075
 30
0.0
 10
-3.101512
 20
1.848825
 30
0.0
 10
-3.032887
 20
1.848075
 30
0.0
 10
-2.967412
 20
1.859475
 30
0.0
 10
-2.905612
 20
1.882275
 30
0.0
 10
-2.848762
 20
1.915800
 30
0.0
 10
-2.797387
 20
1.958625
 30
0.0
 10
-2.753212
 20
2.010225
 30
0.0
 10
-2.716837
 20
2.069625
 30
0.0
 10
-2.689012
 20
2.135700
 30
0.0
 10
-2.671162
 20
2.207625
 30
0.0
 10
-2.663662
 20
2.284177
 30
0.0
 10
-2.668162
 20
2.364945
 30
0.0
 10
-2.685187
 20
2.448607
 30
0.0
 10
-2.715937
 20
2.534175
 30
0.0
 10
-2.630362
 20
2.503425
 30
0.0
 10
-2.546872
 20
2.486250
 30
0.0
 10
-2.466097
 20
2.481750
 30
0.0
 10
-2.389545
 20
2.489250
 30
0.0
 10
-2.317470
 20
2.507250
 30
0.0
 10
-2.251470
 20
2.535075
 30
0.0
 10
-2.192070
 20
2.571450
 30
0.0
  0
LWPOLYLINE
  5
108
100
AcDbEntity
  8
Calque_1
 62
7
100
AcDbPolyline
 90
64
 70
1
 10
-1.214653
 20
4.437727
 30
0.0
 10
-1.152948
 20
4.463452
 30
0.0
 10
-1.097164
 20
4.498327
 30
0.0
 10
-1.048201
 20
4.542652
 30
0.0
 10
-1.007857
 20
4.595452
 30
0.0
 10
-0.977569
 20
4.656877
 30
0.0
 10
-0.957765
 20
4.725727
 30
0.0
 10
-0.950310
 20
4.802265
 30
0.0
 10
-0.956460
 20
4.885792
 30
0.0
 10
-0.976543
 20
4.956592
 30
0.0
 10
-1.012759
 20
5.023118
 30
0.0
 10
-1.063183
 20
5.086568
 30
0.0
 10
-1.126405
 20
5.147543
 30
0.0
 10
-1.200596
 20
5.207318
 30
0.0
 10
-1.283770
 20
5.266868
 30
0.0
 10
-1.373937
 20
5.326868
 30
0.0
 10
-1.469600
 20
5.388368
 30
0.0
 10
-1.568722
 20
5.452568
 30
0.0
 10
-1.669683
 20
5.520293
 30
0.0
 10
-1.770829
 20
5.592443
 30
0.0
 10
-1.869885
 20
5.669955
 30
0.0
 10
-1.965468
 20
5.753880
 30
0.0
 10
-2.055333
 20
5.845305
 30
0.0
 10
-2.138119
 20
5.945130
 30
0.0
 10
-2.211957
 20
6.054180
 30
0.0
 10
-2.209902
 20
5.922495
 30
0.0
 10
-2.220448
 20
5.793232
 30
0.0
 10
-2.241894
 20
5.666760
 30
0.0
 10
-2.271852
 20
5.543265
 30
0.0
 10
-2.308745
 20
5.422852
 30
0.0
 10
-2.349991
 20
5.305785
 30
0.0
 10
-2.393863
 20
5.192430
 30
0.0
 10
-2.438462
 20
5.082877
 30
0.0
 10
-2.481518
 20
4.977592
 30
0.0
 10
-2.520990
 20
4.876755
 30
0.0
 10
-2.554972
 20
4.780282
 30
0.0
 10
-2.581264
 20
4.688850
 30
0.0
 10
-2.598025
 20
4.602562
 30
0.0
 10
-2.603140
 20
4.521592
 30
0.0
 10
-2.594640
 20
4.446300
 30
0.0
 10
-2.570415
 20
4.376700
 30
0.0
 10
-2.527513
 20
4.304625
 30
0.0
 10
-2.477512
 20
4.246200
 30
0.0
 10
-2.421757
 20
4.201125
 30
0.0
 10
-2.361227
 20
4.168800
 30
0.0
 10
-2.297891
 20
4.148625
 30
0.0
 10
-2.232523
 20
4.140525
 30
0.0
 10
-2.166631
 20
4.143525
 30
0.0
 10
-2.101289
 20
4.157775
 30
0.0
 10
-2.038282
 20
4.183125
 30
0.0
 10
-1.978590
 20
4.219050
 30
0.0
 10
-1.923397
 20
4.264800
 30
0.0
 10
-1.874350
 20
4.320375
 30
0.0
 10
-1.832347
 20
4.384800
 30
0.0
 10
-1.799044
 20
4.458525
 30
0.0
 10
-1.775516
 20
4.540575
 30
0.0
 10
-1.763281
 20
4.630695
 30
0.0
 10
-1.701579
 20
4.563870
 30
0.0
 10
-1.635454
 20
4.510095
 30
0.0
 10
-1.565887
 20
4.468770
 30
0.0
 10
-1.494517
 20
4.440120
 30
0.0
 10
-1.422275
 20
4.422795
 30
0.0
 10
-1.350850
 20
4.417545
 30
0.0
 10
-1.281365
 20
4.422045
 30
0.0
  0
LWPOLYLINE
  5
109
100
AcDbEntity
  8
Calque_1
 62
7
100
AcDbPolyline
 90
64
 70
1
 10
1.208273
 20
-4.338540
 30
0.0
 10
1.146568
 20
-4.364265
 30
0.0
 10
1.090784
 20
-4.399140
 30
0.0
 10
1.041821
 20
-4.443465
 30
0.0
 10
1.001478
 20
-4.496265
 30
0.0
 10
0.971190
 20
-4.557690
 30
0.0
 10
0.951385
 20
-4.626540
 30
0.0
 10
0.943930
 20
-4.703077
 30
0.0
 10
0.950080
 20
-4.786605
 30
0.0
 10
0.970164
 20
-4.857405
 30
0.0
 10
1.006379
 20
-4.923930
 30
0.0
 10
1.056803
 20
-4.987380
 30
0.0
 10
1.120025
 20
-5.048355
 30
0.0
 10
1.194216
 20
-5.108130
 30
0.0
 10
1.277390
 20
-5.167680
 30
0.0
 10
1.367557
 20
-5.227680
 30
0.0
 10
1.463220
 20
-5.289180
 30
0.0
 10
1.562342
 20
-5.353380
 30
0.0
 10
1.663303
 20
-5.421105
 30
0.0
 10
1.764449
 20
-5.493255
 30
0.0
 10
1.863505
 20
-5.570768
 30
0.0
 10
1.959088
 20
-5.654693
 30
0.0
 10
2.048953
 20
-5.746118
 30
0.0
 10
2.131739
 20
-5.845943
 30
0.0
 10
2.205577
 20
-5.954993
 30
0.0
 10
2.203522
 20
-5.823307
 30
0.0
 10
2.214068
 20
-5.694045
 30
0.0
 10
2.235514
 20
-5.567572
 30
0.0
 10
2.265472
 20
-5.444077
 30
0.0
 10
2.302365
 20
-5.323665
 30
0.0
 10
2.343611
 20
-5.206597
 30
0.0
 10
2.387483
 20
-5.093242
 30
0.0
 10
2.432082
 20
-4.983690
 30
0.0
 10
2.475138
 20
-4.878405
 30
0.0
 10
2.514610
 20
-4.777567
 30
0.0
 10
2.548592
 20
-4.681095
 30
0.0
 10
2.574884
 20
-4.589662
 30
0.0
 10
2.591645
 20
-4.503375
 30
0.0
 10
2.596760
 20
-4.422405
 30
0.0
 10
2.588260
 20
-4.347112
 30
0.0
 10
2.564035
 20
-4.277512
 30
0.0
 10
2.521133
 20
-4.205437
 30
0.0
 10
2.471132
 20
-4.147012
 30
0.0
 10
2.415377
 20
-4.101937
 30
0.0
 10
2.354847
 20
-4.069613
 30
0.0
 10
2.291511
 20
-4.049438
 30
0.0
 10
2.226143
 20
-4.041337
 30
0.0
 10
2.160251
 20
-4.044337
 30
0.0
 10
2.094909
 20
-4.058587
 30
0.0
 10
2.031902
 20
-4.083937
 30
0.0
 10
1.972210
 20
-4.119863
 30
0.0
 10
1.917017
 20
-4.165613
 30
0.0
 10
1.867970
 20
-4.221187
 30
0.0
 10
1.825967
 20
-4.285612
 30
0.0
 10
1.792664
 20
-4.359337
 30
0.0
 10
1.769136
 20
-4.441387
 30
0.0
 10
1.756901
 20
-4.531507
 30
0.0
 10
1.695199
 20
-4.464682
 30
0.0
 10
1.629074
 20
-4.410907
 30
0.0
 10
1.559507
 20
-4.369582
 30
0.0
 10
1.488137
 20
-4.340932
 30
0.0
 10
1.415895
 20
-4.323607
 30
0.0
 10
1.344470
 20
-4.318357
 30
0.0
 10
1.274985
 20
-4.322857
 30
0.0
  0
LWPOLYLINE
  5
10a
100
AcDbEntity
  8
Calque_1
 62
7
100
AcDbPolyline
 90
64
 70
1
 10
4.541942
 20
1.055993
 30
0.0
 10
4.567667
 20
0.994268
 30
0.0
 10
4.602542
 20
0.938468
 30
0.0
 10
4.646867
 20
0.889493
 30
0.0
 10
4.699667
 20
0.849142
 30
0.0
 10
4.761092
 20
0.818843
 30
0.0
 10
4.829942
 20
0.799042
 30
0.0
 10
4.906480
 20
0.791542
 30
0.0
 10
4.990007
 20
0.797542
 30
0.0
 10
5.060807
 20
0.817642
 30
0.0
 10
5.127332
 20
0.853867
 30
0.0
 10
5.190782
 20
0.904267
 30
0.0
 10
5.251757
 20
0.967492
 30
0.0
 10
5.311532
 20
1.041667
 30
0.0
 10
5.371082
 20
1.124850
 30
0.0
 10
5.431082
 20
1.215015
 30
0.0
 10
5.492582
 20
1.310670
 30
0.0
 10
5.556782
 20
1.409790
 30
0.0
 10
5.624507
 20
1.510755
 30
0.0
 10
5.696657
 20
1.611915
 30
0.0
 10
5.774170
 20
1.710967
 30
0.0
 10
5.858095
 20
1.806547
 30
0.0
 10
5.949520
 20
1.896405
 30
0.0
 10
6.049345
 20
1.979197
 30
0.0
 10
6.158395
 20
2.053072
 30
0.0
 10
6.026710
 20
2.050822
 30
0.0
 10
5.897447
 20
2.061397
 30
0.0
 10
5.770975
 20
2.082847
 30
0.0
 10
5.647480
 20
2.112847
 30
0.0
 10
5.527067
 20
2.149747
 30
0.0
 10
5.410000
 20
2.190997
 30
0.0
 10
5.296645
 20
2.234872
 30
0.0
 10
5.187092
 20
2.279497
 30
0.0
 10
5.081807
 20
2.322547
 30
0.0
 10
4.980970
 20
2.361997
 30
0.0
 10
4.884497
 20
2.395972
 30
0.0
 10
4.793065
 20
2.422297
 30
0.0
 10
4.706777
 20
2.439022
 30
0.0
 10
4.625807
 20
2.444272
 30
0.0
 10
4.550515
 20
2.435797
 30
0.0
 10
4.480915
 20
2.411572
 30
0.0
 10
4.408840
 20
2.368672
 30
0.0
 10
4.350415
 20
2.318647
 30
0.0
 10
4.305340
 20
2.262922
 30
0.0
 10
4.273015
 20
2.202397
 30
0.0
 10
4.252840
 20
2.139022
 30
0.0
 10
4.244740
 20
2.073622
 30
0.0
 10
4.247740
 20
2.007697
 30
0.0
 10
4.261990
 20
1.942372
 30
0.0
 10
4.287340
 20
1.879372
 30
0.0
 10
4.323265
 20
1.819672
 30
0.0
 10
4.369015
 20
1.764472
 30
0.0
 10
4.424590
 20
1.715422
 30
0.0
 10
4.489015
 20
1.673422
 30
0.0
 10
4.562740
 20
1.640122
 30
0.0
 10
4.644790
 20
1.616572
 30
0.0
 10
4.734910
 20
1.604347
 30
0.0
 10
4.668085
 20
1.542622
 30
0.0
 10
4.614310
 20
1.476472
 30
0.0
 10
4.572985
 20
1.406872
 30
0.0
 10
4.544335
 20
1.335472
 30
0.0
 10
4.527010
 20
1.263247
 30
0.0
 10
4.521760
 20
1.191847
 30
0.0
 10
4.526260
 20
1.122397
 30
0.0
  0
LWPOLYLINE
  5
10b
100
AcDbEntity
  8
Calque_1
 62
7
100
AcDbPolyline
 90
64
 70
1
 10
-4.333534
 20
-1.590487
 30
0.0
 10
-4.359259
 20
-1.528763
 30
0.0
 10
-4.394134
 20
-1.472962
 30
0.0
 10
-4.438459
 20
-1.423988
 30
0.0
 10
-4.491259
 20
-1.383638
 30
0.0
 10
-4.552684
 20
-1.353338
 30
0.0
 10
-4.621534
 20
-1.333538
 30
0.0
 10
-4.698072
 20
-1.326038
 30
0.0
 10
-4.781599
 20
-1.332038
 30
0.0
 10
-4.852399
 20
-1.352137
 30
0.0
 10
-4.918924
 20
-1.388362
 30
0.0
 10
-4.982374
 20
-1.438762
 30
0.0
 10
-5.043349
 20
-1.501987
 30
0.0
 10
-5.103124
 20
-1.576162
 30
0.0
 10
-5.162674
 20
-1.659345
 30
0.0
 10
-5.222674
 20
-1.749510
 30
0.0
 10
-5.284174
 20
-1.845165
 30
0.0
 10
-5.348374
 20
-1.944285
 30
0.0
 10
-5.416099
 20
-2.045250
 30
0.0
 10
-5.488249
 20
-2.146410
 30
0.0
 10
-5.565762
 20
-2.245462
 30
0.0
 10
-5.649687
 20
-2.341042
 30
0.0
 10
-5.741112
 20
-2.430900
 30
0.0
 10
-5.840937
 20
-2.513692
 30
0.0
 10
-5.949987
 20
-2.587567
 30
0.0
 10
-5.818302
 20
-2.585317
 30
0.0
 10
-5.689039
 20
-2.595892
 30
0.0
 10
-5.562567
 20
-2.617342
 30
0.0
 10
-5.439072
 20
-2.647342
 30
0.0
 10
-5.318659
 20
-2.684242
 30
0.0
 10
-5.201592
 20
-2.725492
 30
0.0
 10
-5.088237
 20
-2.769367
 30
0.0
 10
-4.978684
 20
-2.813992
 30
0.0
 10
-4.873399
 20
-2.857042
 30
0.0
 10
-4.772562
 20
-2.896492
 30
0.0
 10
-4.676089
 20
-2.930467
 30
0.0
 10
-4.584657
 20
-2.956792
 30
0.0
 10
-4.498369
 20
-2.973517
 30
0.0
 10
-4.417399
 20
-2.978767
 30
0.0
 10
-4.342107
 20
-2.970292
 30
0.0
 10
-4.272507
 20
-2.946067
 30
0.0
 10
-4.200432
 20
-2.903167
 30
0.0
 10
-4.142007
 20
-2.853142
 30
0.0
 10
-4.096932
 20
-2.797417
 30
0.0
 10
-4.064607
 20
-2.736892
 30
0.0
 10
-4.044432
 20
-2.673517
 30
0.0
 10
-4.036332
 20
-2.608117
 30
0.0
 10
-4.039332
 20
-2.542192
 30
0.0
 10
-4.053582
 20
-2.476867
 30
0.0
 10
-4.078932
 20
-2.413867
 30
0.0
 10
-4.114857
 20
-2.354167
 30
0.0
 10
-4.160607
 20
-2.298967
 30
0.0
 10
-4.216182
 20
-2.249917
 30
0.0
 10
-4.280607
 20
-2.207917
 30
0.0
 10
-4.354332
 20
-2.174617
 30
0.0
 10
-4.436382
 20
-2.151067
 30
0.0
 10
-4.526502
 20
-2.138842
 30
0.0
 10
-4.459677
 20
-2.077117
 30
0.0
 10
-4.405902
 20
-2.010967
 30
0.0
 10
-4.364577
 20
-1.941367
 30
0.0
 10
-4.335927
 20
-1.869967
 30
0.0
 10
-4.318602
 20
-1.797742
 30
0.0
 10
-4.313352
 20
-1.726342
 30
0.0
 10
-4.317852
 20
-1.656892
 30
0.0
  0
ENDSEC
  0
SECTION
  2
OBJECTS
  0
DICTIONARY
  5
C
330
0
100
AcDbDictionary
  3
ACAD_GROUP
350
D
  3
ACAD_MLINESTYLE
350
17
  0
DICTIONARY
  5
D
330
C
100
AcDbDictionary
  0
DICTIONARY
  5
1A
330
C
100
AcDbDictionary
  0
DICTIONARY
  5
17
330
C
100
AcDbDictionary
  3
STANDARD
350
18
  0
DICTIONARY
  5
19
330
C
100
AcDbDictionary
  0
ENDSEC
  0
EOF
